- Advanced Search

    Song Title »
Django
    Authors »
John Lewis

    Lyrics »

(instrumental)

    Tabs »
Django: John Lewis Capo on three
~: slide over frets from position to position
12: flageolet

E----3-------2---------------5--8--3-----2--3--0-----7--------10--8------
B----5-----5----5--4~5-1-----4--7----5---------------6--------9-----5----
G----4---4------2------------5--8------4-------0-----7-----7--10------5--
D---------------4--4~5-2---------------------------------6---------------
A----------------------------2------------------------------------0------
E--0---0---------------------------0--------------0----0-----------------

E--7-8---5-------5---------8--7------6--7----3-------3--7--5------4-5-------6----5-
B---------5------4------4--7--8------7--8----3-------5-------5----------7----------
G------5---5-----5----5----8--7----------------4-----4---------5--4-5-------6----5-
D-------------0-----0-----------0--------------------5-----4----------4---4---4--4-
A-------------------------------------------------3--------------------------------
E----------------------------------3------3----------------------------------------

E--6---2--7--------8------14--12-----10--8----8--7----5--3-----3-0---0-2-0-
B------2--7------7-------------------10--10---8--7----0--0----0----0-------
G--6---3--8----8---------------------9---9----9--8----0--0-----------------
D--4---------7-------------------------------------------------------------
A---------------------------------12---------------------------------------
E------2-7------------12--------------------7------12-------0--------------

E------0--------------------------------------------------------------------------12-
B-------1-----1---------1----------0----------------------------------------------12-
G---------2-----2-------2------3---2---2--2-4-2-0---0-2-0---0---------------------12-
D---2-------2---------1--------2---1--------------4-------4---2---2--2---2---1-2-----
A--0---------------2-------2-3-----2----------------------------2---0----------------
E--------------------------------------0-------------------------------3---2---0-----

    Performances »
Date Performance 1973-00-00
Running Time 1:02
Performers Richard Hallagan (Strings Arranged By), Keith Olsen (Produced By), Lindsey Buckingham (Guitars)
Appears On
Buckingham Nicks (1973)
Buckingham Nicks

    Comments »

Published by MJQ (BMI)

    Reviews »
Add your review of Django here.

    Last Modified »
2007-01-11

    Discography Credits »
Tabs prepared by As transcribed by Marieke van der Til.